ISO-10303-21;
HEADER;
FILE_DESCRIPTION(('OneSpaceDesigner STEP Export'),'2;1');
FILE_NAME('CBC.2-10_PT.stp','2008-06-11T 8:57:00',(''),(''),
'OneSpace Designer STEP processor for AP214 (Solid Model)',
'OneSpace Modeling 15.50  10-Aug-2007 (C) CoCreate Software GmbH','');
FILE_SCHEMA(('AUTOMOTIVE_DESIGN { 1 0 10303 214 1 1 1 1 }'));
ENDSEC;
DATA;
#10=CARTESIAN_POINT('',(6.263355,18.307985,0.));
#20=DIRECTION('',(0.,0.,1.));
#30=DIRECTION('',(1.,0.,-0.));
#40=AXIS2_PLACEMENT_3D('',#10,#20,#30);
#50=PLANE('',#40);
#60=CARTESIAN_POINT('',(181.98912887219,92.8467320997681,0.));
#70=DIRECTION('',(0.,0.,1.));
#80=DIRECTION('',(1.,0.,0.));
#90=AXIS2_PLACEMENT_3D('',#60,#70,#80);
#100=CIRCLE('',#90,1.5);
#110=CARTESIAN_POINT('',(183.48912887219,92.8467320997681,0.));
#120=VERTEX_POINT('',#110);
#130=CARTESIAN_POINT('',(180.48912887219,92.8467320997681,0.));
#140=VERTEX_POINT('',#130);
#150=EDGE_CURVE('',#120,#140,#100,.T.);
#160=ORIENTED_EDGE('',*,*,#150,.F.);
#170=EDGE_CURVE('',#140,#120,#100,.T.);
#180=ORIENTED_EDGE('',*,*,#170,.F.);
#190=EDGE_LOOP('',(#180,#160));
#200=FACE_BOUND('',#190,.T.);
#210=CARTESIAN_POINT('',(181.98912887219,128.446732099768,0.));
#220=DIRECTION('',(0.,0.,1.));
#230=DIRECTION('',(1.,0.,0.));
#240=AXIS2_PLACEMENT_3D('',#210,#220,#230);
#250=CIRCLE('',#240,1.5);
#260=CARTESIAN_POINT('',(183.48912887219,128.446732099768,0.));
#270=VERTEX_POINT('',#260);
#280=CARTESIAN_POINT('',(180.48912887219,128.446732099768,0.));
#290=VERTEX_POINT('',#280);
#300=EDGE_CURVE('',#270,#290,#250,.T.);
#310=ORIENTED_EDGE('',*,*,#300,.F.);
#320=EDGE_CURVE('',#290,#270,#250,.T.);
#330=ORIENTED_EDGE('',*,*,#320,.F.);
#340=EDGE_LOOP('',(#330,#310));
#350=FACE_BOUND('',#340,.T.);
#360=CARTESIAN_POINT('',(185.251741774917,131.646732099768,0.));
#370=DIRECTION('',(-1.,0.,0.));
#380=VECTOR('',#370,1.);
#390=LINE('',#360,#380);
#400=CARTESIAN_POINT('',(185.251741774917,131.646732099768,0.));
#410=VERTEX_POINT('',#400);
#420=CARTESIAN_POINT('',(155.98912887219,131.646732099768,0.));
#430=VERTEX_POINT('',#420);
#440=EDGE_CURVE('',#410,#430,#390,.T.);
#450=ORIENTED_EDGE('',*,*,#440,.T.);
#460=CARTESIAN_POINT('',(198.331149015516,126.886217182344,0.));
#470=DIRECTION('',(-0.939692620785909,0.342020143325668,0.));
#480=VECTOR('',#470,1.);
#490=LINE('',#460,#480);
#500=CARTESIAN_POINT('',(198.331149015516,126.886217182344,0.));
#510=VERTEX_POINT('',#500);
#520=EDGE_CURVE('',#510,#410,#490,.T.);
#530=ORIENTED_EDGE('',*,*,#520,.T.);
#540=CARTESIAN_POINT('',(197.98912887219,125.946524561558,0.));
#550=DIRECTION('',(0.,0.,1.));
#560=DIRECTION('',(1.,0.,0.));
#570=AXIS2_PLACEMENT_3D('',#540,#550,#560);
#580=CIRCLE('',#570,1.);
#590=CARTESIAN_POINT('',(198.98912887219,125.946524561558,0.));
#600=VERTEX_POINT('',#590);
#610=EDGE_CURVE('',#600,#510,#580,.T.);
#620=ORIENTED_EDGE('',*,*,#610,.T.);
#630=CARTESIAN_POINT('',(198.98912887219,125.946524561558,0.));
#640=DIRECTION('',(0.,-1.,0.));
#650=VECTOR('',#640,1.);
#660=LINE('',#630,#650);
#670=CARTESIAN_POINT('',(198.98912887219,95.3469396379779,0.));
#680=VERTEX_POINT('',#670);
#690=EDGE_CURVE('',#600,#680,#660,.T.);
#700=ORIENTED_EDGE('',*,*,#690,.F.);
#710=CARTESIAN_POINT('',(197.98912887219,95.3469396379779,0.));
#720=DIRECTION('',(0.,0.,1.));
#730=DIRECTION('',(1.,0.,-0.));
#740=AXIS2_PLACEMENT_3D('',#710,#720,#730);
#750=CIRCLE('',#740,1.);
#760=CARTESIAN_POINT('',(198.331149015516,94.4072470171919,0.));
#770=VERTEX_POINT('',#760);
#780=EDGE_CURVE('',#770,#680,#750,.T.);
#790=ORIENTED_EDGE('',*,*,#780,.T.);
#800=CARTESIAN_POINT('',(198.002159087179,94.2875044759038,0.));
#810=DIRECTION('',(-0.939692620785908,-0.342020143325669,0.));
#820=VECTOR('',#810,1.);
#830=LINE('',#800,#820);
#840=CARTESIAN_POINT('',(185.251741774917,89.6467320997681,0.));
#850=VERTEX_POINT('',#840);
#860=EDGE_CURVE('',#770,#850,#830,.T.);
#870=ORIENTED_EDGE('',*,*,#860,.F.);
#880=CARTESIAN_POINT('',(185.251741774917,89.6467320997681,0.));
#890=DIRECTION('',(-1.,0.,0.));
#900=VECTOR('',#890,1.);
#910=LINE('',#880,#900);
#920=CARTESIAN_POINT('',(155.98912887219,89.6467320997681,0.));
#930=VERTEX_POINT('',#920);
#940=EDGE_CURVE('',#850,#930,#910,.T.);
#950=ORIENTED_EDGE('',*,*,#940,.F.);
#960=CARTESIAN_POINT('',(155.98912887219,91.1467320997681,0.));
#970=DIRECTION('',(0.,0.,1.));
#980=DIRECTION('',(1.,0.,0.));
#990=AXIS2_PLACEMENT_3D('',#960,#970,#980);
#1000=CIRCLE('',#990,1.5);
#1010=CARTESIAN_POINT('',(154.48912887219,91.1467320997681,0.));
#1020=VERTEX_POINT('',#1010);
#1030=EDGE_CURVE('',#1020,#930,#1000,.T.);
#1040=ORIENTED_EDGE('',*,*,#1030,.T.);
#1050=CARTESIAN_POINT('',(154.48912887219,91.1467320997681,0.));
#1060=DIRECTION('',(0.,1.,0.));
#1070=VECTOR('',#1060,1.);
#1080=LINE('',#1050,#1070);
#1090=CARTESIAN_POINT('',(154.48912887219,130.146732099768,0.));
#1100=VERTEX_POINT('',#1090);
#1110=EDGE_CURVE('',#1020,#1100,#1080,.T.);
#1120=ORIENTED_EDGE('',*,*,#1110,.F.);
#1130=CARTESIAN_POINT('',(155.98912887219,130.146732099768,0.));
#1140=DIRECTION('',(0.,0.,1.));
#1150=DIRECTION('',(1.,0.,0.));
#1160=AXIS2_PLACEMENT_3D('',#1130,#1140,#1150);
#1170=CIRCLE('',#1160,1.5);
#1180=EDGE_CURVE('',#430,#1100,#1170,.T.);
#1190=ORIENTED_EDGE('',*,*,#1180,.T.);
#1200=EDGE_LOOP('',(#1190,#1120,#1040,#950,#870,#790,#700,#620,#530,#450
));
#1210=FACE_OUTER_BOUND('',#1200,.T.);
#1220=ADVANCED_FACE('',(#200,#350,#1210),#50,.T.);
#1230=CARTESIAN_POINT('',(6.263355,18.307985,-1.5));
#1240=DIRECTION('',(0.,0.,1.));
#1250=DIRECTION('',(1.,0.,-0.));
#1260=AXIS2_PLACEMENT_3D('',#1230,#1240,#1250);
#1270=PLANE('',#1260);
#1280=CARTESIAN_POINT('',(155.98912887219,130.146732099768,-1.5));
#1290=DIRECTION('',(0.,0.,1.));
#1300=DIRECTION('',(1.,0.,0.));
#1310=AXIS2_PLACEMENT_3D('',#1280,#1290,#1300);
#1320=CIRCLE('',#1310,1.5);
#1330=CARTESIAN_POINT('',(155.98912887219,131.646732099768,-1.5));
#1340=VERTEX_POINT('',#1330);
#1350=CARTESIAN_POINT('',(154.48912887219,130.146732099768,-1.5));
#1360=VERTEX_POINT('',#1350);
#1370=EDGE_CURVE('',#1340,#1360,#1320,.T.);
#1380=ORIENTED_EDGE('',*,*,#1370,.F.);
#1390=CARTESIAN_POINT('',(154.48912887219,91.1467320997681,-1.5));
#1400=DIRECTION('',(0.,1.,0.));
#1410=VECTOR('',#1400,1.);
#1420=LINE('',#1390,#1410);
#1430=CARTESIAN_POINT('',(154.48912887219,91.1467320997681,-1.5));
#1440=VERTEX_POINT('',#1430);
#1450=EDGE_CURVE('',#1440,#1360,#1420,.T.);
#1460=ORIENTED_EDGE('',*,*,#1450,.T.);
#1470=CARTESIAN_POINT('',(155.98912887219,91.1467320997681,-1.5));
#1480=DIRECTION('',(0.,0.,1.));
#1490=DIRECTION('',(1.,0.,0.));
#1500=AXIS2_PLACEMENT_3D('',#1470,#1480,#1490);
#1510=CIRCLE('',#1500,1.5);
#1520=CARTESIAN_POINT('',(155.98912887219,89.6467320997681,-1.5));
#1530=VERTEX_POINT('',#1520);
#1540=EDGE_CURVE('',#1440,#1530,#1510,.T.);
#1550=ORIENTED_EDGE('',*,*,#1540,.F.);
#1560=CARTESIAN_POINT('',(185.251741774917,89.6467320997681,-1.5));
#1570=DIRECTION('',(-1.,0.,0.));
#1580=VECTOR('',#1570,1.);
#1590=LINE('',#1560,#1580);
#1600=CARTESIAN_POINT('',(185.251741774917,89.6467320997681,-1.5));
#1610=VERTEX_POINT('',#1600);
#1620=EDGE_CURVE('',#1610,#1530,#1590,.T.);
#1630=ORIENTED_EDGE('',*,*,#1620,.T.);
#1640=CARTESIAN_POINT('',(198.002159087179,94.2875044759038,-1.5));
#1650=DIRECTION('',(-0.939692620785908,-0.342020143325669,0.));
#1660=VECTOR('',#1650,1.);
#1670=LINE('',#1640,#1660);
#1680=CARTESIAN_POINT('',(198.331149015516,94.4072470171919,-1.5));
#1690=VERTEX_POINT('',#1680);
#1700=EDGE_CURVE('',#1690,#1610,#1670,.T.);
#1710=ORIENTED_EDGE('',*,*,#1700,.T.);
#1720=CARTESIAN_POINT('',(197.98912887219,95.3469396379779,-1.5));
#1730=DIRECTION('',(0.,0.,1.));
#1740=DIRECTION('',(1.,0.,-0.));
#1750=AXIS2_PLACEMENT_3D('',#1720,#1730,#1740);
#1760=CIRCLE('',#1750,1.);
#1770=CARTESIAN_POINT('',(198.98912887219,95.3469396379779,-1.5));
#1780=VERTEX_POINT('',#1770);
#1790=EDGE_CURVE('',#1690,#1780,#1760,.T.);
#1800=ORIENTED_EDGE('',*,*,#1790,.F.);
#1810=CARTESIAN_POINT('',(198.98912887219,125.946524561558,-1.5));
#1820=DIRECTION('',(0.,-1.,0.));
#1830=VECTOR('',#1820,1.);
#1840=LINE('',#1810,#1830);
#1850=CARTESIAN_POINT('',(198.98912887219,125.946524561558,-1.5));
#1860=VERTEX_POINT('',#1850);
#1870=EDGE_CURVE('',#1860,#1780,#1840,.T.);
#1880=ORIENTED_EDGE('',*,*,#1870,.T.);
#1890=CARTESIAN_POINT('',(197.98912887219,125.946524561558,-1.5));
#1900=DIRECTION('',(0.,0.,1.));
#1910=DIRECTION('',(1.,0.,0.));
#1920=AXIS2_PLACEMENT_3D('',#1890,#1900,#1910);
#1930=CIRCLE('',#1920,1.);
#1940=CARTESIAN_POINT('',(198.331149015516,126.886217182344,-1.5));
#1950=VERTEX_POINT('',#1940);
#1960=EDGE_CURVE('',#1860,#1950,#1930,.T.);
#1970=ORIENTED_EDGE('',*,*,#1960,.F.);
#1980=CARTESIAN_POINT('',(198.331149015516,126.886217182344,-1.5));
#1990=DIRECTION('',(-0.939692620785909,0.342020143325668,0.));
#2000=VECTOR('',#1990,1.);
#2010=LINE('',#1980,#2000);
#2020=CARTESIAN_POINT('',(185.251741774917,131.646732099768,-1.5));
#2030=VERTEX_POINT('',#2020);
#2040=EDGE_CURVE('',#1950,#2030,#2010,.T.);
#2050=ORIENTED_EDGE('',*,*,#2040,.F.);
#2060=CARTESIAN_POINT('',(185.251741774917,131.646732099768,-1.5));
#2070=DIRECTION('',(-1.,0.,0.));
#2080=VECTOR('',#2070,1.);
#2090=LINE('',#2060,#2080);
#2100=EDGE_CURVE('',#2030,#1340,#2090,.T.);
#2110=ORIENTED_EDGE('',*,*,#2100,.F.);
#2120=EDGE_LOOP('',(#2110,#2050,#1970,#1880,#1800,#1710,#1630,#1550,
#1460,#1380));
#2130=FACE_OUTER_BOUND('',#2120,.T.);
#2140=ADVANCED_FACE('',(#2130),#1270,.F.);
#2150=CARTESIAN_POINT('',(181.98912887219,92.8467320997681,0.));
#2160=DIRECTION('',(0.,0.,1.));
#2170=DIRECTION('',(1.,0.,0.));
#2180=AXIS2_PLACEMENT_3D('',#2150,#2160,#2170);
#2190=CYLINDRICAL_SURFACE('',#2180,1.5);
#2200=CARTESIAN_POINT('',(183.48912887219,92.8467320997681,0.));
#2210=DIRECTION('',(0.,0.,1.));
#2220=VECTOR('',#2210,1.);
#2230=LINE('',#2200,#2220);
#2240=CARTESIAN_POINT('',(183.48912887219,92.8467320997681,2.));
#2250=VERTEX_POINT('',#2240);
#2260=EDGE_CURVE('',#120,#2250,#2230,.T.);
#2270=ORIENTED_EDGE('',*,*,#2260,.T.);
#2280=ORIENTED_EDGE('',*,*,#170,.T.);
#2290=CARTESIAN_POINT('',(180.48912887219,92.8467320997681,0.));
#2300=DIRECTION('',(0.,0.,1.));
#2310=VECTOR('',#2300,1.);
#2320=LINE('',#2290,#2310);
#2330=CARTESIAN_POINT('',(180.48912887219,92.8467320997681,2.));
#2340=VERTEX_POINT('',#2330);
#2350=EDGE_CURVE('',#140,#2340,#2320,.T.);
#2360=ORIENTED_EDGE('',*,*,#2350,.F.);
#2370=CARTESIAN_POINT('',(181.98912887219,92.8467320997681,2.));
#2380=DIRECTION('',(0.,0.,1.));
#2390=DIRECTION('',(1.,0.,0.));
#2400=AXIS2_PLACEMENT_3D('',#2370,#2380,#2390);
#2410=CIRCLE('',#2400,1.5);
#2420=EDGE_CURVE('',#2340,#2250,#2410,.T.);
#2430=ORIENTED_EDGE('',*,*,#2420,.F.);
#2440=EDGE_LOOP('',(#2430,#2360,#2280,#2270));
#2450=FACE_OUTER_BOUND('',#2440,.T.);
#2460=ADVANCED_FACE('',(#2450),#2190,.T.);
#2470=CARTESIAN_POINT('',(6.263355,18.307985,2.));
#2480=DIRECTION('',(0.,0.,1.));
#2490=DIRECTION('',(1.,0.,-0.));
#2500=AXIS2_PLACEMENT_3D('',#2470,#2480,#2490);
#2510=PLANE('',#2500);
#2520=EDGE_CURVE('',#2250,#2340,#2410,.T.);
#2530=ORIENTED_EDGE('',*,*,#2520,.T.);
#2540=ORIENTED_EDGE('',*,*,#2420,.T.);
#2550=EDGE_LOOP('',(#2540,#2530));
#2560=FACE_OUTER_BOUND('',#2550,.T.);
#2570=ADVANCED_FACE('',(#2560),#2510,.T.);
#2580=CARTESIAN_POINT('',(181.98912887219,128.446732099768,0.));
#2590=DIRECTION('',(0.,0.,1.));
#2600=DIRECTION('',(1.,0.,0.));
#2610=AXIS2_PLACEMENT_3D('',#2580,#2590,#2600);
#2620=CYLINDRICAL_SURFACE('',#2610,1.5);
#2630=CARTESIAN_POINT('',(183.48912887219,128.446732099768,0.));
#2640=DIRECTION('',(0.,0.,1.));
#2650=VECTOR('',#2640,1.);
#2660=LINE('',#2630,#2650);
#2670=CARTESIAN_POINT('',(183.48912887219,128.446732099768,2.));
#2680=VERTEX_POINT('',#2670);
#2690=EDGE_CURVE('',#270,#2680,#2660,.T.);
#2700=ORIENTED_EDGE('',*,*,#2690,.T.);
#2710=ORIENTED_EDGE('',*,*,#320,.T.);
#2720=CARTESIAN_POINT('',(180.48912887219,128.446732099768,0.));
#2730=DIRECTION('',(0.,0.,1.));
#2740=VECTOR('',#2730,1.);
#2750=LINE('',#2720,#2740);
#2760=CARTESIAN_POINT('',(180.48912887219,128.446732099768,2.));
#2770=VERTEX_POINT('',#2760);
#2780=EDGE_CURVE('',#290,#2770,#2750,.T.);
#2790=ORIENTED_EDGE('',*,*,#2780,.F.);
#2800=CARTESIAN_POINT('',(181.98912887219,128.446732099768,2.));
#2810=DIRECTION('',(0.,0.,1.));
#2820=DIRECTION('',(1.,0.,0.));
#2830=AXIS2_PLACEMENT_3D('',#2800,#2810,#2820);
#2840=CIRCLE('',#2830,1.5);
#2850=EDGE_CURVE('',#2770,#2680,#2840,.T.);
#2860=ORIENTED_EDGE('',*,*,#2850,.F.);
#2870=EDGE_LOOP('',(#2860,#2790,#2710,#2700));
#2880=FACE_OUTER_BOUND('',#2870,.T.);
#2890=ADVANCED_FACE('',(#2880),#2620,.T.);
#2900=CARTESIAN_POINT('',(6.263355,18.307985,2.));
#2910=DIRECTION('',(0.,0.,1.));
#2920=DIRECTION('',(1.,0.,-0.));
#2930=AXIS2_PLACEMENT_3D('',#2900,#2910,#2920);
#2940=PLANE('',#2930);
#2950=EDGE_CURVE('',#2680,#2770,#2840,.T.);
#2960=ORIENTED_EDGE('',*,*,#2950,.T.);
#2970=ORIENTED_EDGE('',*,*,#2850,.T.);
#2980=EDGE_LOOP('',(#2970,#2960));
#2990=FACE_OUTER_BOUND('',#2980,.T.);
#3000=ADVANCED_FACE('',(#2990),#2940,.T.);
#3010=ORIENTED_EDGE('',*,*,#2520,.F.);
#3020=ORIENTED_EDGE('',*,*,#2350,.T.);
#3030=ORIENTED_EDGE('',*,*,#150,.T.);
#3040=ORIENTED_EDGE('',*,*,#2260,.F.);
#3050=EDGE_LOOP('',(#3040,#3030,#3020,#3010));
#3060=FACE_OUTER_BOUND('',#3050,.T.);
#3070=ADVANCED_FACE('',(#3060),#2190,.T.);
#3080=ORIENTED_EDGE('',*,*,#2950,.F.);
#3090=ORIENTED_EDGE('',*,*,#2780,.T.);
#3100=ORIENTED_EDGE('',*,*,#300,.T.);
#3110=ORIENTED_EDGE('',*,*,#2690,.F.);
#3120=EDGE_LOOP('',(#3110,#3100,#3090,#3080));
#3130=FACE_OUTER_BOUND('',#3120,.T.);
#3140=ADVANCED_FACE('',(#3130),#2620,.T.);
#3150=CARTESIAN_POINT('',(155.98912887219,91.1467320997681,0.));
#3160=DIRECTION('',(0.,0.,1.));
#3170=DIRECTION('',(1.,0.,0.));
#3180=AXIS2_PLACEMENT_3D('',#3150,#3160,#3170);
#3190=CYLINDRICAL_SURFACE('',#3180,1.5);
#3200=CARTESIAN_POINT('',(155.98912887219,89.6467320997681,0.));
#3210=DIRECTION('',(-0.,-0.,-1.));
#3220=VECTOR('',#3210,1.);
#3230=LINE('',#3200,#3220);
#3240=EDGE_CURVE('',#930,#1530,#3230,.T.);
#3250=ORIENTED_EDGE('',*,*,#3240,.F.);
#3260=ORIENTED_EDGE('',*,*,#1540,.T.);
#3270=CARTESIAN_POINT('',(154.48912887219,91.1467320997681,0.));
#3280=DIRECTION('',(0.,0.,1.));
#3290=VECTOR('',#3280,1.);
#3300=LINE('',#3270,#3290);
#3310=EDGE_CURVE('',#1440,#1020,#3300,.T.);
#3320=ORIENTED_EDGE('',*,*,#3310,.F.);
#3330=ORIENTED_EDGE('',*,*,#1030,.F.);
#3340=EDGE_LOOP('',(#3330,#3320,#3260,#3250));
#3350=FACE_OUTER_BOUND('',#3340,.T.);
#3360=ADVANCED_FACE('',(#3350),#3190,.T.);
#3370=CARTESIAN_POINT('',(154.48912887219,130.146732099768,0.));
#3380=DIRECTION('',(-1.,0.,0.));
#3390=DIRECTION('',(0.,1.,0.));
#3400=AXIS2_PLACEMENT_3D('',#3370,#3380,#3390);
#3410=PLANE('',#3400);
#3420=ORIENTED_EDGE('',*,*,#3310,.T.);
#3430=ORIENTED_EDGE('',*,*,#1450,.F.);
#3440=CARTESIAN_POINT('',(154.48912887219,130.146732099768,0.));
#3450=DIRECTION('',(0.,0.,1.));
#3460=VECTOR('',#3450,1.);
#3470=LINE('',#3440,#3460);
#3480=EDGE_CURVE('',#1360,#1100,#3470,.T.);
#3490=ORIENTED_EDGE('',*,*,#3480,.F.);
#3500=ORIENTED_EDGE('',*,*,#1110,.T.);
#3510=EDGE_LOOP('',(#3500,#3490,#3430,#3420));
#3520=FACE_OUTER_BOUND('',#3510,.T.);
#3530=ADVANCED_FACE('',(#3520),#3410,.T.);
#3540=CARTESIAN_POINT('',(155.98912887219,130.146732099768,0.));
#3550=DIRECTION('',(0.,0.,1.));
#3560=DIRECTION('',(1.,0.,0.));
#3570=AXIS2_PLACEMENT_3D('',#3540,#3550,#3560);
#3580=CYLINDRICAL_SURFACE('',#3570,1.5);
#3590=ORIENTED_EDGE('',*,*,#3480,.T.);
#3600=ORIENTED_EDGE('',*,*,#1370,.T.);
#3610=CARTESIAN_POINT('',(155.98912887219,131.646732099768,0.));
#3620=DIRECTION('',(-0.,-0.,-1.));
#3630=VECTOR('',#3620,1.);
#3640=LINE('',#3610,#3630);
#3650=EDGE_CURVE('',#430,#1340,#3640,.T.);
#3660=ORIENTED_EDGE('',*,*,#3650,.T.);
#3670=ORIENTED_EDGE('',*,*,#1180,.F.);
#3680=EDGE_LOOP('',(#3670,#3660,#3600,#3590));
#3690=FACE_OUTER_BOUND('',#3680,.T.);
#3700=ADVANCED_FACE('',(#3690),#3580,.T.);
#3710=CARTESIAN_POINT('',(185.251741774917,131.646732099768,0.));
#3720=DIRECTION('',(0.,1.,0.));
#3730=DIRECTION('',(1.,-0.,0.));
#3740=AXIS2_PLACEMENT_3D('',#3710,#3720,#3730);
#3750=PLANE('',#3740);
#3760=ORIENTED_EDGE('',*,*,#3650,.F.);
#3770=ORIENTED_EDGE('',*,*,#2100,.T.);
#3780=CARTESIAN_POINT('',(185.251741774917,131.646732099768,0.));
#3790=DIRECTION('',(-0.,-0.,-1.));
#3800=VECTOR('',#3790,1.);
#3810=LINE('',#3780,#3800);
#3820=EDGE_CURVE('',#410,#2030,#3810,.T.);
#3830=ORIENTED_EDGE('',*,*,#3820,.T.);
#3840=ORIENTED_EDGE('',*,*,#440,.F.);
#3850=EDGE_LOOP('',(#3840,#3830,#3770,#3760));
#3860=FACE_OUTER_BOUND('',#3850,.T.);
#3870=ADVANCED_FACE('',(#3860),#3750,.T.);
#3880=CARTESIAN_POINT('',(198.331149015516,126.886217182344,0.));
#3890=DIRECTION('',(0.342020143325668,0.939692620785909,0.));
#3900=DIRECTION('',(0.939692620785909,-0.342020143325668,0.));
#3910=AXIS2_PLACEMENT_3D('',#3880,#3890,#3900);
#3920=PLANE('',#3910);
#3930=ORIENTED_EDGE('',*,*,#3820,.F.);
#3940=ORIENTED_EDGE('',*,*,#2040,.T.);
#3950=CARTESIAN_POINT('',(198.331149015516,126.886217182344,0.));
#3960=DIRECTION('',(-0.,-0.,-1.));
#3970=VECTOR('',#3960,1.);
#3980=LINE('',#3950,#3970);
#3990=EDGE_CURVE('',#510,#1950,#3980,.T.);
#4000=ORIENTED_EDGE('',*,*,#3990,.T.);
#4010=ORIENTED_EDGE('',*,*,#520,.F.);
#4020=EDGE_LOOP('',(#4010,#4000,#3940,#3930));
#4030=FACE_OUTER_BOUND('',#4020,.T.);
#4040=ADVANCED_FACE('',(#4030),#3920,.T.);
#4050=CARTESIAN_POINT('',(197.98912887219,125.946524561558,0.));
#4060=DIRECTION('',(0.,0.,1.));
#4070=DIRECTION('',(1.,0.,0.));
#4080=AXIS2_PLACEMENT_3D('',#4050,#4060,#4070);
#4090=CYLINDRICAL_SURFACE('',#4080,1.);
#4100=ORIENTED_EDGE('',*,*,#3990,.F.);
#4110=ORIENTED_EDGE('',*,*,#1960,.T.);
#4120=CARTESIAN_POINT('',(198.98912887219,125.946524561558,0.));
#4130=DIRECTION('',(0.,0.,1.));
#4140=VECTOR('',#4130,1.);
#4150=LINE('',#4120,#4140);
#4160=EDGE_CURVE('',#1860,#600,#4150,.T.);
#4170=ORIENTED_EDGE('',*,*,#4160,.F.);
#4180=ORIENTED_EDGE('',*,*,#610,.F.);
#4190=EDGE_LOOP('',(#4180,#4170,#4110,#4100));
#4200=FACE_OUTER_BOUND('',#4190,.T.);
#4210=ADVANCED_FACE('',(#4200),#4090,.T.);
#4220=CARTESIAN_POINT('',(198.98912887219,95.6970434070827,0.));
#4230=DIRECTION('',(1.,0.,0.));
#4240=DIRECTION('',(0.,-1.,0.));
#4250=AXIS2_PLACEMENT_3D('',#4220,#4230,#4240);
#4260=PLANE('',#4250);
#4270=ORIENTED_EDGE('',*,*,#4160,.T.);
#4280=ORIENTED_EDGE('',*,*,#1870,.F.);
#4290=CARTESIAN_POINT('',(198.98912887219,95.3469396379779,0.));
#4300=DIRECTION('',(0.,0.,1.));
#4310=VECTOR('',#4300,1.);
#4320=LINE('',#4290,#4310);
#4330=EDGE_CURVE('',#1780,#680,#4320,.T.);
#4340=ORIENTED_EDGE('',*,*,#4330,.F.);
#4350=ORIENTED_EDGE('',*,*,#690,.T.);
#4360=EDGE_LOOP('',(#4350,#4340,#4280,#4270));
#4370=FACE_OUTER_BOUND('',#4360,.T.);
#4380=ADVANCED_FACE('',(#4370),#4260,.T.);
#4390=CARTESIAN_POINT('',(155.98912887219,89.6467320997681,0.));
#4400=DIRECTION('',(0.,-1.,0.));
#4410=DIRECTION('',(-1.,-0.,0.));
#4420=AXIS2_PLACEMENT_3D('',#4390,#4400,#4410);
#4430=PLANE('',#4420);
#4440=CARTESIAN_POINT('',(185.251741774917,89.6467320997681,0.));
#4450=DIRECTION('',(-0.,-0.,-1.));
#4460=VECTOR('',#4450,1.);
#4470=LINE('',#4440,#4460);
#4480=EDGE_CURVE('',#850,#1610,#4470,.T.);
#4490=ORIENTED_EDGE('',*,*,#4480,.F.);
#4500=ORIENTED_EDGE('',*,*,#1620,.F.);
#4510=ORIENTED_EDGE('',*,*,#3240,.T.);
#4520=ORIENTED_EDGE('',*,*,#940,.T.);
#4530=EDGE_LOOP('',(#4520,#4510,#4500,#4490));
#4540=FACE_OUTER_BOUND('',#4530,.T.);
#4550=ADVANCED_FACE('',(#4540),#4430,.T.);
#4560=CARTESIAN_POINT('',(185.251741774917,89.6467320997681,0.));
#4570=DIRECTION('',(0.342020143325669,-0.939692620785908,0.));
#4580=DIRECTION('',(-0.939692620785908,-0.342020143325669,0.));
#4590=AXIS2_PLACEMENT_3D('',#4560,#4570,#4580);
#4600=PLANE('',#4590);
#4610=ORIENTED_EDGE('',*,*,#1700,.F.);
#4620=ORIENTED_EDGE('',*,*,#4480,.T.);
#4630=ORIENTED_EDGE('',*,*,#860,.T.);
#4640=CARTESIAN_POINT('',(198.331149015516,94.4072470171919,0.));
#4650=DIRECTION('',(0.,0.,1.));
#4660=VECTOR('',#4650,1.);
#4670=LINE('',#4640,#4660);
#4680=EDGE_CURVE('',#1690,#770,#4670,.T.);
#4690=ORIENTED_EDGE('',*,*,#4680,.T.);
#4700=EDGE_LOOP('',(#4690,#4630,#4620,#4610));
#4710=FACE_OUTER_BOUND('',#4700,.T.);
#4720=ADVANCED_FACE('',(#4710),#4600,.T.);
#4730=CARTESIAN_POINT('',(197.98912887219,95.3469396379779,0.));
#4740=DIRECTION('',(0.,0.,1.));
#4750=DIRECTION('',(1.,0.,-0.));
#4760=AXIS2_PLACEMENT_3D('',#4730,#4740,#4750);
#4770=CYLINDRICAL_SURFACE('',#4760,1.);
#4780=ORIENTED_EDGE('',*,*,#780,.F.);
#4790=ORIENTED_EDGE('',*,*,#4330,.T.);
#4800=ORIENTED_EDGE('',*,*,#1790,.T.);
#4810=ORIENTED_EDGE('',*,*,#4680,.F.);
#4820=EDGE_LOOP('',(#4810,#4800,#4790,#4780));
#4830=FACE_OUTER_BOUND('',#4820,.T.);
#4840=ADVANCED_FACE('',(#4830),#4770,.T.);
#4850=CLOSED_SHELL('',(#3360,#3530,#3700,#3870,#4040,#4210,#4380,#4550,
#4720,#4840,#2140,#2460,#2570,#2890,#3000,#3070,#3140,#1220));
#4860=MANIFOLD_SOLID_BREP('',#4850);
#4870=CARTESIAN_POINT('',(0.,0.,0.));
#4880=DIRECTION('',(0.,0.,1.));
#4890=DIRECTION('',(1.,0.,0.));
#4900=AXIS2_PLACEMENT_3D('',#4870,#4880,#4890);
#4910=APPLICATION_CONTEXT(' ');
#4920=APPLICATION_PROTOCOL_DEFINITION(' ','automotive_design',1998,#4910
);
#4930=PRODUCT_CONTEXT('',#4910,'mechanical');
#4940=PRODUCT_DEFINITION_CONTEXT('part definition',#4910,'design');
#4950=PRODUCT('CBC.2-10_PT','CBC.2-10_PT','',(#4930));
#4960=PRODUCT_RELATED_PRODUCT_CATEGORY('part',' ',(#4950));
#4970=PRODUCT_DEFINITION_FORMATION_WITH_SPECIFIED_SOURCE('','',#4950,
.BOUGHT.);
#4980=PRODUCT_DEFINITION('',' ',#4970,#4940);
#4990=PRODUCT_DEFINITION_SHAPE('','',#4980);
#5000=DIMENSIONAL_EXPONENTS(1.,0.,0.,0.,0.,0.,0.);
#5010=DIMENSIONAL_EXPONENTS(0.,0.,0.,0.,0.,0.,0.);
#5020=DIMENSIONAL_EXPONENTS(0.,0.,0.,0.,0.,0.,0.);
#5030=(LENGTH_UNIT() NAMED_UNIT(*) SI_UNIT(.MILLI.,.METRE.));
#5040=(NAMED_UNIT(*) PLANE_ANGLE_UNIT() SI_UNIT($,.RADIAN.));
#5050=(NAMED_UNIT(*) SI_UNIT($,.STERADIAN.) SOLID_ANGLE_UNIT());
#5060=(GEOMETRIC_REPRESENTATION_CONTEXT(3) 
GLOBAL_UNCERTAINTY_ASSIGNED_CONTEXT((#5070)) 
GLOBAL_UNIT_ASSIGNED_CONTEXT((#5030,#5040,#5050)) REPRESENTATION_CONTEXT
('',''));
#5070=UNCERTAINTY_MEASURE_WITH_UNIT(LENGTH_MEASURE(1.E-6),#5030,
'distance_accuracy_value','maximum gap value');
#5080=ADVANCED_BREP_SHAPE_REPRESENTATION('',(#4900,#4860),#5060);
#5090=SHAPE_DEFINITION_REPRESENTATION(#4990,#5080);
#5100=COLOUR_RGB('',0.600000023841858,0.600000023841858,
0.600000023841858);
#5110=FILL_AREA_STYLE_COLOUR('',#5100);
#5120=FILL_AREA_STYLE('',(#5110));
#5130=SURFACE_STYLE_FILL_AREA(#5120);
#5140=SURFACE_SIDE_STYLE('',(#5130));
#5150=SURFACE_STYLE_USAGE(.BOTH.,#5140);
#5160=PRESENTATION_STYLE_ASSIGNMENT((#5150));
#5170=STYLED_ITEM('',(#5160),#4860);
#5180=DRAUGHTING_MODEL('',(#5170),#5060);
#5190=CARTESIAN_POINT('',(-110.646732099768,-154.48912887219,0.));
#5200=DIRECTION('',(0.,0.,-1.));
#5210=DIRECTION('',(0.,1.,0.));
#5220=AXIS2_PLACEMENT_3D('',#5190,#5200,#5210);
#5230=ITEM_DEFINED_TRANSFORMATION('CBC.2-10_PT','',#4900,#5220);
#5240=APPLICATION_CONTEXT(' ');
#5250=APPLICATION_PROTOCOL_DEFINITION(' ','automotive_design',1998,#5240
);
#5260=PRODUCT_CONTEXT('',#5240,'mechanical');
#5270=PRODUCT_DEFINITION_CONTEXT('part definition',#5240,'design');
#5280=PRODUCT('CBC.2-10_PT','CBC.2-10_PT','',(#5260));
#5290=PRODUCT_RELATED_PRODUCT_CATEGORY('part',' ',(#5280));
#5300=PRODUCT_DEFINITION_FORMATION_WITH_SPECIFIED_SOURCE('','',#5280,
.BOUGHT.);
#5310=PRODUCT_DEFINITION('',' ',#5300,#5270);
#5320=PRODUCT_DEFINITION_SHAPE('','',#5310);
#5330=DIMENSIONAL_EXPONENTS(1.,0.,0.,0.,0.,0.,0.);
#5340=DIMENSIONAL_EXPONENTS(0.,0.,0.,0.,0.,0.,0.);
#5350=DIMENSIONAL_EXPONENTS(0.,0.,0.,0.,0.,0.,0.);
#5360=(LENGTH_UNIT() NAMED_UNIT(*) SI_UNIT(.MILLI.,.METRE.));
#5370=(NAMED_UNIT(*) PLANE_ANGLE_UNIT() SI_UNIT($,.RADIAN.));
#5380=(NAMED_UNIT(*) SI_UNIT($,.STERADIAN.) SOLID_ANGLE_UNIT());
#5390=(GEOMETRIC_REPRESENTATION_CONTEXT(3) 
GLOBAL_UNCERTAINTY_ASSIGNED_CONTEXT((#5400)) 
GLOBAL_UNIT_ASSIGNED_CONTEXT((#5360,#5370,#5380)) REPRESENTATION_CONTEXT
('',''));
#5400=UNCERTAINTY_MEASURE_WITH_UNIT(LENGTH_MEASURE(1.E-6),#5360,
'distance_accuracy_value','maximum gap value');
#5410=SHAPE_REPRESENTATION('',(#4900,#5220),#5390);
#5420=SHAPE_DEFINITION_REPRESENTATION(#5320,#5410);
#5430=(REPRESENTATION_RELATIONSHIP('','',#5080,#5410) 
REPRESENTATION_RELATIONSHIP_WITH_TRANSFORMATION(#5230) 
SHAPE_REPRESENTATION_RELATIONSHIP());
#5440=NEXT_ASSEMBLY_USAGE_OCCURRENCE('1','','CBC.2-10_PT',#5310,#4980,''
);
#5450=PRODUCT_DEFINITION_SHAPE('','',#5440);
#5460=CONTEXT_DEPENDENT_SHAPE_REPRESENTATION(#5430,#5450);
ENDSEC;
END-ISO-10303-21;
